Lirik, Kunci gitar, Chords Gitar, Kord Gitar Fire House - Here For You :

Riff 1
e | -------------------------------------------------------------3--3-----
B | -------------------3-------1------0----0--------1----3-------1--1p-0--
G | ------0--------------0-------2------0----0--------0----2-----0--0-----
D | -0-2h---0----------------2-------2------------------2----0------------
A | ----------0-2h---2-----0-------2------2----0-1-2----------------------
E | ---------------3-------------------------------------------2----------


G Am Em
So you think you've got it all figured out
C D G
Well you know you can't make it alone
G Am Em
Everybody needs somebody to help them out
C D G
And you know I could be that someone
Em
And if you ever get lost on life's highway
Bm
Don't know where to go
C D9 D D4 D
There's just one thing that I want you to know


C D G C D G
I am here for you, always here for you
Em Bm
When you need a shoulder to cry on
C G C D G
Someone to rely on, I am here for you


Solo 1
e | ------3-5s-7-5-3-5s-7-5-3-5s-7-5-3------3-5s-7-5-3---------3-- Legenda:
B | -3-5h------------------------------3-5h------------5p-3-5h---- s - slide
G | -------------------------------------------------------------- h - hammer on
D | -------------------------------------------------------------- p - pull off
A | --------------------------------------------------------------
E | --------------------------------------------------------------

G Am Em
So you think that love is long overdue
C D G
Tired of looking for someone to care
G Am Em
Let me tell you now the choice is up to you
C D G
But you know I will always be there


C D G C D G
I am here for you, always here for you
Em Bm
When you're needin' someone to hold you
C G C D Em
Remember I told you, I am here for you
C D G
I am here for you

Solo principal


G Am Em
So now you've got it all figured out
C D G
And you know you've found someone that cares
G Am Em
And if you ever need somebody to help you out
C D G
Well you know I will always be there


Em
And if you ever get lost on life's highway
Bm
Don't know where to go
C D9 D D4 D
There's just one thing that I want you to know


C D G C D G
I am here for you, always here for you
Em Bm
When you're needin' someone to hold you
C G C D Em
Remember I told you, I am here for you
C D G Riff 1
I am here for you

Related Posts by Categories



Recent Chord :