Lirik, Kunci gitar, Chords Gitar, Kord Gitar Superman Is Dead - Saint Of My Life :

intro solo guitar
e|---------------------------------------------|
B|---------------------------------------------|
G|-7/12-712712-16-14--16/17-161416121416/17/16-|
D|---------------------------------------------|
A|-5/10-510510-14-12--14/15-141214101214/15/14-|
E|---------------------------------------------|

e|----------------------------------------------------|
B|----------------------------------------------------|
G|----------------------------------------------------|
D|-7/12-712712-16141212/14-1412977/9-171614129-9/1412-|
A|-5/10-510510-14121010/12-1210755/7-151412107-7/1210-|
E|----------------------------------------------------|

G5
good night good night my little angel

D5
good night good night my little ones

C5
spread your wings and fly

D5 G5
away to your dreams

G5
when you're sleep i'm on your side

D5
when you're awake i'll be your still

C5 D5 G5
close your eyes put a smile on your face

E5
don't be scared coz

C5 G5 D5
i'll be there to hold you tight

E5 C5
you're the king you're the queen

G5 D5
you're saint of my life

E5 C5
and when the world is trembling

G5 D5
down don't you cry

E5 C5
coz there's nothing nothing

G D5 C5B5
that will keep us apart

G5
sing with me my little darling

D5
sing along to this lullabies

C5 D5 G5
pick the moon kiss the star so good night


sOLO GUITAR
e|--------------------------------------|
B|-----8----------8-/10----8-10-----8---|
G|-/7-9-97----/7-9-9-----9------7-9-----|
D|------------------------------------9-|
A|--------------------------------------|
E|--------------------------------------|

e|-/7----------/7------------------------------------|
B|----108---------108---------8-----10---------------|
G|-------9-----------97----/9--9-/11-11--------------|
D|--------9-----------------------------------9109---|
A|--------------------------------------11--------11-|
E|---------------------------------------------------|

Related Posts by Categories



Recent Chord :