Lirik, Kunci gitar, Chords Gitar, Kord Gitar


E---------------------------2h3p------------------------------------
B----------------3-----3-5-------5-3---------------5-----5-7^8^7-6-7
G---3-4-6--3-4-6---4-6--------------6--4-6-7--4-6-7--6-7------------
D-------------------------------------------------------------------
A-------------------------------------------------------------------
E-------------------------------------------------------------------

E-------------------------------------------------------------------
B---7--------7--9^10^9-7-6-7----------------------------------------
G----7-7---7-----------------7---7----------------------------------
D-------6-7--------------------7------------------------------------
A-------------------------------------------------------------------
E-------------------------------------------------------------------


G D F#
I have exposed your lies baby
G
The underneath is no big surprise
D F#
Now it's time for changing
G
And cleansing everything
D
To forget your love

Bm (palm mute)

G Bm
My plug in baby
G
Crucify my enemies
Bm
When I'm tired of giving
G Bm
My plug in baby
G
My underbroken virgin realities
Bm
Tired of living


(repeat riff)


Don't confused
Baby you're gonna loose
Your own game
Change me
And replace the envying
To forget your love

My plug in baby
Crucify my enemies
When I'm tired of giving
My plug in baby
My underbroken virgin realities
Tired of living

Related Posts by Categories



Recent Chord :